http://trombi.goth.free.fr
 
AccueilAccueil  FAQFAQ  RechercherRechercher  S'enregistrerS'enregistrer  MembresMembres  GroupesGroupes  Connexion  

Partagez | 
 

 tablature Bauhaus

Voir le sujet précédent Voir le sujet suivant Aller en bas 
AuteurMessage
vox
Rang: Administrateur
avatar

Nombre de messages : 2984
Localisation : Compiegne
Date d'inscription : 12/01/2005

MessageSujet: tablature Bauhaus   Sam 12 Nov à 13:49

"Dark Entries" by Bauhaus (from the album "In The Flat Field")
========================================


intro Riff 1

e---------------------------------------------------
B--------------------------------------------------
G--------------------------------------------------
D-7--6--5--4-------------------------------
A-x--x--x--x----------------------------------------
E-5--4--3--2-------------------------------------------

intro riff 2
e---------------------------------------------------------
B----------------------------------------------
G-14-13-16-11--------------------------------------
D-x---x---x--x-----------------------------------------
A-12-11--14-9---------------------------------------------
E--------------------------------------------------

pre-verse riff
e--0----0------0-----0--------------------------
B--0----0------0-----0---------------------------------
G-0-----0------0-----0-------------------------------
D-7-----6------5-----4------------------------------
A-7-----6------5-----4------------------------------
E-5-----4------3-----2------------------------------

verse riff
e------------------------------------------------
B----------------------------------------------
G-0--0--0--0--------------------------------------
D-7--6--5--4---------------------------------------
A-7--6--5--4---------------------------------------
E-5--4--3--2----------------------------------------

Break riff
e--------------------------------------------------
B---------------------------------------------------
G-9--7--5------------------------------------------
D-7--7--5--------------------------------------------
A-7--5--3------------------------------------
E-0--0--0-----------------------------------------
Revenir en haut Aller en bas
Voir le profil de l'utilisateur http://trombi.goth.free.fr
vox
Rang: Administrateur
avatar

Nombre de messages : 2984
Localisation : Compiegne
Date d'inscription : 12/01/2005

MessageSujet: Re: tablature Bauhaus   Sam 12 Nov à 13:52

"A God in an Alcove" by Bauhaus (from the album "In The Flat Field")
============================================


----0-----------------------0------0-------------------------0-----0-------
----0-----------------------0----------0-----------------0---------0-------
----0-------0-------------- 5---------------2--------2-------------0-------
----4-----------4-----0----3--------------------3------------------4-------
----2-----------------------0---------------------------------------2-------
----0-----------------------x---------------------------------------0-------


--------------0-------
-0------------0-------
--------------5-------
------4---0--3-------
--------------0-------
--------------x-------
Revenir en haut Aller en bas
Voir le profil de l'utilisateur http://trombi.goth.free.fr
vox
Rang: Administrateur
avatar

Nombre de messages : 2984
Localisation : Compiegne
Date d'inscription : 12/01/2005

MessageSujet: Re: tablature Bauhaus   Sam 12 Nov à 13:53

"The Spy in The Cab" by Bauhaus (from the album "In the Flat Field")
============================================
Main:

e|------0-----------------0-----------------------------
B|----0---0---0---0-1-1-0-----0-1-1-0-0--1-1-1-1-0-0-0--
G|--2-------2---2---------------------------------------
D|--------------------------3---------------------------
A|------------------------------------------------------
E|------------------------------------------------------
Revenir en haut Aller en bas
Voir le profil de l'utilisateur http://trombi.goth.free.fr
vox
Rang: Administrateur
avatar

Nombre de messages : 2984
Localisation : Compiegne
Date d'inscription : 12/01/2005

MessageSujet: Re: tablature Bauhaus   Sam 12 Nov à 13:55

"She's In Parties" by Bauhaus (from the album "Burning From the Inside")
==============================================



Intro: w/EBow and volume pedal
||------------------------------------------------------------------
||------------------------------------------------------------------
||------------------------------------------------------------------
||----10--*-----10-slide-EBow-away-from pickup-/-volume-off

||------------------------------------------------------------------
||------------------------------------------------------------------
* lift off string

w/distortion and chorus:
e------------------------------------------------------------------
B------------------------------------------------------------------
G----5------4----5----4----5----4----2~~------0-h-2-----------
D------------------------------------------------------------------
A------------------------------------------------------------------
E------------------------------------------------------------------

e------------------------------------------------------------------
B------------------------------------------------------------------
G---------------0-h-2------5-5-5-/-7-7-7------------------------
D----0-h-2--------------------------------------------------------
A------------------------------------------------------------------
E------------------------------------------------------------------


Verse:
e-----------------------------------------------------------------
B----------------------------------------------------------------
G----2--------------0-0-0-h-2----------------------------------
D---------0-h-2------------------*--0-0-0-h-2-----------------
A----------------------------------------------------------------
E-----------------------------------------------------------------


* fill 1: w/ EBow
e---------------------------------------
B--------------------------------------
G--------------------------------------
D----10-\------------------------------
A--------------------------------------
E---------------------------------------

Chorus: A5 F5 A5
e------------------------------------------------------------------
B---10-----10 /-18-18-18-18-18-18-\10-------------------------
G----9------9-/-17-17-17-17-17-17-\-9--------------------------
x2
D----7------7-/-15-15-15-15-15-15-\-7--------------------------
A----------------------------------------------------0-0-----------
E-----------------------------------------------------------1~~~--

Interlude/Intro:
e-------------------------------------------------------------------
B-------------------------------------------------------------------
G--5-5-5---4---5-5-5---4---5-5-5--/--7-7-b-8---8----r----7---
D-------------------------------------------------------------------
A-------------------------------------------------------------------
E--------------------------------------------------------------------

Verse

Chorus x2

Bridge: x2 E5 D5 C5 B5 w/phaser

e---------------------------------------------------------------------
B---------------------------------------------------------------------
G--------9----9--\--7--\--5--\-4-------------------------------------

D--------9----9--\--7--\--5--\-4-------------------------------------
A--------7----7--\--5--\--3--\-2-------------------------------------
E----------------------------------------------------------------------

Chorus II: A5 F5 A5 F5 A5
w/phaser x2
e-----------------------------------------------------------------------
B-------10---10--------------10---10-/--18----18--\-10--------------
G--------9----9---10---10----9----9--/--17----17--\--9--------------

D--------7----7---10---10----7----7--/--15----15--\--7--------------
A-------------------8----8---------------------------------------------
E-----------------------------------------------------------------------


Keyboard solo arranged for guitar:
e-------------------------------------------------------------------------
B------------------------------------------------------------------------
G----14--17--14--17--14----16-h-17-p-16-h-17-p-16-h-17-----(14) x3
D-------------------------(on the last time, play the note in parentheses)
A-------------------------------------------------------------------------
E-------------------------------------------------------------------------

Ska(nk) chords played under keyboard: w/o phaser x3.5
e----8--8-----11--11-----8--8--------------------------------------------
B----10-10---11--11-----10-10-------------------------------------------
G----9--9-----------------9--9--------------------------------------------

D--------------------------(listen to it, you'll know what I mean)
A-----------------------------------------------0--------------------------
E----------------------------------------------------1~~~-----------------


Chorus II x2 w/phaser

Bridge w/phaser

Chorus II x2 w/phaser and keyboard solo under

Ad lib ending (my CD skips here, so ...)

End with the intro.


Notation guide:
~ = vibrato
h = hammer-on to
/ = slide up to
\ = slide down to
b = bend to
r = release to
p = pull-off to

NOTES: Daniel Ash wields an incredible guitar tone on this song; quite on
the verge of being out of control. I achieved a similar tone using my Line
6 AxSys212 amp on the Vox AC-30 emulation, with a ProCo Rat 2 (distortion:
2 o'clock / filter:min / level: 3 o'clock), and Digitech Whammy on maximum
Shallow Detune. I also set my vintage Electro Harmonix Small Stone phaser
to 11 o'clock with the Colour switch DOWN. I can achieve a pretty close
tone.
Good luck!
Revenir en haut Aller en bas
Voir le profil de l'utilisateur http://trombi.goth.free.fr
vox
Rang: Administrateur
avatar

Nombre de messages : 2984
Localisation : Compiegne
Date d'inscription : 12/01/2005

MessageSujet: Re: tablature Bauhaus   Sam 12 Nov à 13:56

"Hope" from Bauhaus (from the album "Burning From The Inside")
==========================================



-------------------------
-------------------------
-2----2--2/7-7--7/9--9-9- Riff 1 Repeat 7 times....
-2----2--2/7-7--7/9--9-9-
-0----0--0---0--0----0-0-
-------------------------

------------------------------------
-8--8-8-8-8--8--8-8---7-7-7-----5-5- Riff 2 Repeat once...
-7--7-7-7-7--7--7-7---6-6-6-----4-4-
-5--5-5-5-5--5--5-5---4-4-4-----2-2-
------------------------------------
------------------------------------

------------------------------
------------------------------ Riff 3 Repeat once...
-7---7-7-7-7---9-9-9-9-9-9-9--
-7---7-7-7-7---9-9-9-9-9-9-9--
-5---5-5-5-5---7-7-7-7-7-7-7--
------------------------------
Revenir en haut Aller en bas
Voir le profil de l'utilisateur http://trombi.goth.free.fr
vox
Rang: Administrateur
avatar

Nombre de messages : 2984
Localisation : Compiegne
Date d'inscription : 12/01/2005

MessageSujet: Re: tablature Bauhaus   Sam 12 Nov à 14:01

"The Sanity Assassin" by Bauhaus (from the album "Burning From The Inside")


Intro:
BASS repeat twice w/ bass & drums only; repeat (8X before vocals)
G|----------------------------|------------------------|----------------------|
D|----------------------------|------------------------|----------------------|
A|-5-5--3-5-3--5-5--3-5-3-|0-0-3-0-3-0-0-3-0-3-|----------------------|
E|----------------------------|-------------------------|----------------------|

Guitar 1 (4X w/bass before guitar 2 comes in)(6X before vocals)
e|-------------------------------------------------------
B|-7-7--5-7----7-7--5-7------------------------------
G|-7-7--5-7----7-7--5-7----2-2-2-22-2-2-2-2~~~-
D|-7-7--5-7----7-7--5-7------------------------------
A|-------------------------------------------------------
E|-------------------------------------------------------
Guitar 2 (doubles bass) 2 repetitions before vocals starts
e|--------------------------------------------------------------------|
B|--------------------------------------------------------------------|
G|--------------------------------------------------------------------|
D|--------------------------------------------------------------------|
A|-5-5--3-5-3--5-5--3-5-3-|0-0-3-0-3-0-0-3-0-3-|----------------------|
E|------------------------

**To combine both guitar parts on one guitar, play:
e|--------------------------------------------------------------------|
B|-7-7--5-7----7-7--5-7-----------------------------------------------|
G|-7-7--5-7----7-7--5-7----2-2-2-2-2-2-2-2-2-2------------------------|
D|-7-7--5-7----7-7--5-7----X(mute)------------------------------------|
A|-5-5--3-5-3--5-5--3-5-3-|0-0-3-0-3-0-0-3-0-3-|----------------------|
E|------------------------|--------------------|----------------------|

DD C D DD C D
Sinister echoes clutching at straws
A
Letter boxes screaming
DD C D DD C D
You try to pin him to the wall
A
You end up on the ceiling
DD C D DD C D
Locked in a dome
A
The shadows flicker by
DD C D DD C D
He's the madcap pusher
A
Delerium the drug he's dealing




(A)|---------------------------------|--------------------------------|
|----------------------------------|--------------------------------|
|-12-12-12-12----12-12-12-12-|--------------------------------|
|-12-12-12-12----12-12-12-12-|--------------------------------|
|-10-10-10-10----10-10-10-10-|-12-12-12-12-12-12-12-12-12-----|
|----------------------------------|--------------------------------|


(B)|----------------------------|------------------------|
|-----------------------------|------------------------|
|-7-7-5-7-5---7-7-5-7-5---|------------------------|
|-----------------------------|-7-7-7--7--7-7--7-7--|
|-----------------------------|------------------------|
|-----------------------------|------------------------|


|------------------------------|--------------------------|
|------------------------------|--------------------------|
|------------------------------|--------------------------|
|------------------------------|------------------11--11--|
|-10-10--10-10-10--9-9-9--|-10--10-10--10----------|
|------------------------------|--------------------------------|
Revenir en haut Aller en bas
Voir le profil de l'utilisateur http://trombi.goth.free.fr
vox
Rang: Administrateur
avatar

Nombre de messages : 2984
Localisation : Compiegne
Date d'inscription : 12/01/2005

MessageSujet: Re: tablature Bauhaus   Sam 12 Nov à 14:06

"Bela Lugosi Is Dead" by Bauhaus (from the album "79-83 Vol. 1")


Intro Wah:<-------o-------> 2x
||---0--0--0--0--0--0--0--0---||----------------------------------------
||---5--5--5--5--5--5--5--5---||----------------------------------------
||*--------------------------*--||----------------------------------------
||*--------------------------*--||----------------------------------------
||-------------------------------||----------------------------------------
||-------------------------------||----------------------------------------
After a lot of seconds.

Repeat Introx2 D5IC#5I B5I
0---0---0--0---0---0--0---0---------||-----------5------||--x-----x--x--|----
5^--5^-(6)-5^--5^-(6)-5^--5^---||--------------12--||--x-----x--x--|----
--------------------------------------*||------------------||--x-----x--x--|----
--------------------------------------*||------------------||--7-----6--4--|----
---------------------------------------||------------------||--5-----4--2--|----
---------------------------------------||------------------||--x-----x--x--|----
Feedback at pitch N.H. Chords

D5II C#5II B5II D C# B D+2C#+3 B+4
x-----x-----x--|--x--x--x--|--0-----0--0--|-----------------------------
x-----x-----x--|--7--6--4--|--7-----6--4--|-----------------------------
7-----6-----4--|--7--6--4--|--7-----6--4--|-----------------------------
7-----6-----4--|--7--6--4--|--7-----6--4--|-----------------------------
5-----4-----2--|--5--4--2--|--5-----4--2--|-----------------------------
x-----x-----x--|--x--x--x--|--x-----x--x--|-----------------------------

D9sus6 C#7sus3 Bsus4 A Bb BIIBx
0--------0--------0-----|--5--6--7--x--|--------------------------------
0--------0--------0-----|--5--6--7--x--|--------------------------------
7--------6--------4-----|--6--7--8--x--|--------------------------------
7--------6--------4-----|--7--8--9--x--|--------------------------------
5--------4--------2-----|--7--8--9--x--|--------------------------------
x--------x--------x-----|--5--6--7--x--|--------------------------------
At Bx is BII Heavy Mutted

D5I C#5I B5I
E---||--x--x--x--x--|--x--x--x--x--|--x--x--x--x--|--x--x--x--x--|------
B---||--x--x--x--x--|--x--x--x--x--|--x--x--x--x--|--x--x--x--x--|------
G---||--x--x--x--x--|--x--x--x--x--|--x--x--x--x--|--x--x--x--x--|------
D---||--7--7--7--7--|--6--6--6--6--|--4--4--4--4--|--4--4--4--4--|------
A---||--5--5--5--5--|--4--4--4--4--|--2--2--2--2--|--2--2--2--2--|------
E---||--x--x--x--x--|--x--x--x--x--|--x--x--x--x--|--x--x--x--x--|------

D5II C#5II
E---x--x--x--x--|--x--x--x--x--|--x--x--x--x--|--x--x--x--x--|----------
B---x--x--x--x--|--x--x--x--x--|--x--x--x--x--|--x--x--x--x--|----------
G---7--7--7--7--|--6--6--6--6--|--4--4--4--4--|--4--4--4--4--|----------
D---7--7--7--7--|--6--6--6--6--|--4--4--4--4--|--4--4--4--4--|----------
A---5--5--5--5--|--4--4--4--4--|--2--2--2--2--|--2--2--2--2--|----------
E---x--x--x--x--|--x--x--x--x--|--x--x--x--x--|--x--x--x--x--|----------

D C# B
E---x--x--x--x--|--x--x--x--x--|--x--x--x--x--|--x--x--x--x--|----------
B---7--7--7--7--|--6--6--6--6--|--4--4--4--4--|--4--4--4--4--|----------
G---7--7--7--7--|--6--6--6--6--|--4--4--4--4--|--4--4--4--4--|----------
D---7--7--7--7--|--6--6--6--6--|--4--4--4--4--|--4--4--4--4--|----------
A---5--5--5--5--|--4--4--4--4--|--2--2--2--2--|--2--2--2--2--|----------
E---x--x--x--x--|--x--x--x--x--|--x--x--x--x--|--x--x--x--x--|----------

Dadd2 C#add3 B#add4
E---0--0--0--0--|--0--0--0--0--|--0--0--0--0--|--0--0--0--0--|----------
B---7--7--7--7--|--6--6--6--6--|--4--4--4--4--|--4--4--4--4--|----------
G---7--7--7--7--|--6--6--6--6--|--4--4--4--4--|--4--4--4--4--|----------
D---7--7--7--7--|--6--6--6--6--|--4--4--4--4--|--4--4--4--4--|----------
A---5--5--5--5--|--4--4--4--4--|--2--2--2--2--|--2--2--2--2--|----------
E---x--x--x--x--|--x--x--x--x--|--x--x--x--x--|--x--x--x--x--|----------

D9sus6 C#7sus3 Bsus4
E---0--0--0--0--|--0--0--0--0--|--0--0--0--0--|-------------------------
B---0--0--0--0--|--0--0--0--0--|--0--0--0--0--|-------------------------
G---7--7--7--7--|--6--6--6--6--|--4--4--4--4--|-------------------------
D---7--7--7--7--|--6--6--6--6--|--4--4--4--4--|-------------------------
A---5--5--5--5--|--4--4--4--4--|--2--2--2--2--|-------------------------
E---x--x--x--x--|--x--x--x--x--|--x--x--x--x--|-------------------------

D9sus6 C#7sus3 Bsus4
E---0--0--0--0--||---0--0--0--0--|--0--0--0--0--|--0--0--0--0--|--------
B---0--0--0--0--||---0--0--0--0--|--0--0--0--0--|--0--0--0--0--|--------
G---4--4--4--4--||*--7--7--7--7--|--6--6--6--6--|--4--4--4--4--|--------
D---4--4--4--4--||*--7--7--7--7--|--6--6--6--6--|--4--4--4--4--|--------
A---2--2--2--2--||---5--5--5--5--|--4--4--4--4--|--2--2--2--2--|--------
E---x--x--x--x--||---x--x--x--x--|--x--x--x--x--|--x--x--x--x--|--------
Here P. M. begin singing

D9sus6 C#7sus3 Bsus4 Bx
E---0--0--0--0---||--0--0--0--0--|--0--0--0--0--|--0-----x--x--x--|-----
B---0--0--0--0---||--0--0--0--0--|--0--0--0--0--|--0-----x--x--x--|-----
G---4--4--4--4---||--7--7--7--7--|--6--6--6--6--|--4-----x--x--x--|-----
D---4--4--4--4---||--7--7--7--7--|--6--6--6--6--|--4-----x--x--x--|-----
A---2--2--2--2---||--5--5--5--5--|--4--4--4--4--|--2-----x--x--x--|-----
E---x--x--x--x---||--x--x--x--x--|--x--x--x--x--|--x-----x--x--x--|-----
Rep. till 3rd "Bella ..." ^Accent

A Bb BIIBx
E---x--x--x--x--||---5--5--5--5--|--6--6--6--6--|--7--x--x--x--|--------
B---x--x--x--x--||---5--5--5--5--|--6--6--6--6--|--7--x--x--x--|--------
G---x--x--x--x--||---6--6--6--6--|--7--7--7--7--|--8--x--x--x--|--------
D---x--x--x--x--||---7--7--7--7--|--8--8--8--8--|--9--x--x--x--|--------
A---x--x--x--x--||---7--7--7--7--|--8--8--8--8--|--9--x--x--x--|--------
E---x--x--x--x--||---5--5--5--5--|--6--6--6--6--|--7--x--x--x--|--------
Chorus ^Accent

2x D9sus6 C#7sus3
E---x--x--x--x---||--||---0--0--0--0--|--0--0--0--0--|------------------
B---x--x--x--x---||--||---0--0--0--0--|--0--0--0--0--|------------------
G---x--x--x--x---||--||---7--7--7--7--|--6--6--6--6--|------------------
D---x--x--x--x---||--||---7--7--7--7--|--6--6--6--6--|------------------
A---x--x--x--x---||--||---5--5--5--5--|--4--4--4--4--|------------------
E---x--x--x--x---||--||---x--x--x--x--|--x--x--x--x--|------------------
Repeat till 1st Bella...

Bsus4 A
E---0--0--0--0--|--0--0--0--0---||--||---5--5--5--5--|------------------
B---0--0--0--0--|--0--0--0--0---||--||---5--5--5--5--|------------------
G---4--4--4--4--|--4--4--4--4---||--||---6--6--6--6--|------------------
D---4--4--4--4--|--4--4--4--4---||--||---7--7--7--7--|------------------
A---2--2--2--2--|--2--2--2--2---||--||---7--7--7--7--|------------------
E---x--x--x--x--|--x--x--x--x---||--||---5--5--5--5--|------------------
Chorus

Bb BIIBx 2x DUB part
E---6--6--6--6--|--7--x--x--x--|--x--x--x--x---||-----------------|-----
B---6--6--6--6--|--7--x--x--x--|--x--x--x--x---||-----------------|-----
G---7--7--7--7--|--8--x--x--x--|--x--x--x--x--*||-----------------|-----
D---8--8--8--8--|--9--x--x--x--|--x--x--x--x--*||-----------------|-----
A---8--8--8--8--|--9--x--x--x--|--x--x--x--x---||-----------------|-----
E---6--6--6--6--|--7--x--x--x--|--x--x--x--x---||-----------------|-----
| Accent in D

Then Repeat intro D5I
E---------0-----|--------------------|-----||---x--x--x--x--|-----------
B---------7-----|--------------------|-----||---x--x--x--x--|-----------
G---------7--0--|--------------------|----||*--x--x--x--x--|-----------
D------------0--|--------------------|----||*--7--7--7--7--|-----------
A---------------|--------------------|-----||---5--5--5--5--|-----------
E---------------|--------------------|-----||---x--x--x--x--|-----------
Pick violin

C#5I B5I 3x
E---x--x--x--x--|--x--x--x--x--|--x--x--x--x---||-----------------------
B---x--x--x--x--|--x--x--x--x--|--x--x--x--x---||-----------------------
G---x--x--x--x--|--x--x--x--x--|--x--x--x--x-*||-----------------------
D---6--6--6--6--|--4--4--4--4--|--4--4--4--4-*||-----------------------
A---4--4--4--4--|--2--2--2--2--|--2--2--2--2---||-----------------------
E---x--x--x--x--|--x--x--x--x--|--x--x--x--x---||-----------------------

C#7sus3 Bsus4
E---||---0--0--0--0--|--0--0--0--0--|--0--0--0--0--|--------------------
B---||---0--0--0--0--|--0--0--0--0--|--0--0--0--0--|--------------------
G---||---7--7--7--7--|--6--6--6--6--|--4--4--4--4--|--------------------
D---||---7--7--7--7--|--6--6--6--6--|--4--4--4--4--|--------------------
A---||---5--5--5--5--|--4--4--4--4--|--2--2--2--2--|--------------------
E---||---x--x--x--x--|--x--x--x--x--|--x--x--x--x--|--------------------

DUB part END
E---0--0--0--0---||--------------|--10\0--||----------------------------
B---0--0--0--0---||--------------|--------||----------------------------
G---4--4--4--4--*||--------------|--------||----------------------------
D---4--4--4--4--*||--------------|--------||----------------------------
A---2--2--2--2---||--------------|--------||----------------------------
E---x--x--x--x---||--------------|--------||----------------------------
in D somewhere
Revenir en haut Aller en bas
Voir le profil de l'utilisateur http://trombi.goth.free.fr
Dark
GOTHIC Niveau 5
avatar

Nombre de messages : 717
Localisation : Besançon
Date d'inscription : 17/01/2005

MessageSujet: Re: tablature Bauhaus   Lun 9 Jan à 12:31

vox a écrit:
"Dark Entries" by Bauhaus (from the album "In The Flat Field")
========================================


intro Riff 1

e---------------------------------------------------
B--------------------------------------------------
G--------------------------------------------------
D-7--6--5--4-------------------------------
A-x--x--x--x----------------------------------------
E-5--4--3--2-------------------------------------------

intro riff 2
e---------------------------------------------------------
B----------------------------------------------
G-14-13-16-11--------------------------------------
D-x---x---x--x-----------------------------------------
A-12-11--14-9---------------------------------------------
E--------------------------------------------------

pre-verse riff
e--0----0------0-----0--------------------------
B--0----0------0-----0---------------------------------
G-0-----0------0-----0-------------------------------
D-7-----6------5-----4------------------------------
A-7-----6------5-----4------------------------------
E-5-----4------3-----2------------------------------

verse riff
e------------------------------------------------
B----------------------------------------------
G-0--0--0--0--------------------------------------
D-7--6--5--4---------------------------------------
A-7--6--5--4---------------------------------------
E-5--4--3--2----------------------------------------

Break riff
e--------------------------------------------------
B---------------------------------------------------
G-9--7--5------------------------------------------
D-7--7--5--------------------------------------------
A-7--5--3------------------------------------
E-0--0--0-----------------------------------------

Va falloir que j el'essaie cheers cheers cheers cheers cheers cheers cheers cheers cheers cheers
Revenir en haut Aller en bas
Voir le profil de l'utilisateur http://www.ifrance.com/lemans
vox
Rang: Administrateur
avatar

Nombre de messages : 2984
Localisation : Compiegne
Date d'inscription : 12/01/2005

MessageSujet: Re: tablature Bauhaus   Lun 9 Jan à 14:25

oui
a vrai dire Bahaus ça reste méga simple a jouer, le tout étant de trouver le sound et la façon !

bonne gratouille What a Face
Revenir en haut Aller en bas
Voir le profil de l'utilisateur http://trombi.goth.free.fr
jim
GOTHIC Niveau 3
avatar

Nombre de messages : 90
Localisation : oise
Date d'inscription : 12/01/2005

MessageSujet: Re: tablature Bauhaus   Mar 4 Déc à 12:57

Cool les tabs de bauhaus cheers ...mais aurais tu des liens pour recuperer des

tablatures...gratos bien sur!!!!! Cool

mis à part abc-tabs.com cela reste difficile de trouver des tablatures

interessantes en s"eloignant du style CABREL!!!!!!!!!!!!!!!

tu vois le genre...quoi?! What the fuck ?!?
Revenir en haut Aller en bas
Voir le profil de l'utilisateur
Contenu sponsorisé




MessageSujet: Re: tablature Bauhaus   

Revenir en haut Aller en bas
 
tablature Bauhaus
Voir le sujet précédent Voir le sujet suivant Revenir en haut 
Page 1 sur 1
 Sujets similaires
-
» Site espagnol de partition Tango
» Exercice d'arpèges et d'accords sur Coldplay
» l’accompagnement du chant à l’accordéon sur Louise attaque
» O Malhao Malhao - Linda De Suza

Permission de ce forum:Vous ne pouvez pas répondre aux sujets dans ce forum
FORUM TROMBI GOTH :: Catégorie à modifier... :: Musiciens Goth's-
Sauter vers: